ISO-10303-21;
HEADER;
FILE_DESCRIPTION (( 'STEP AP203' ),
    '1' );
FILE_NAME ('BK7-NPBSC-10-1200-1600.STEP',
    '2020-12-22T02:09:59',
    ( '' ),
    ( '' ),
    'SwSTEP 2.0',
    'SolidWorks 2020',
    '' );
FILE_SCHEMA (( 'CONFIG_CONTROL_DESIGN' ));
ENDSEC;

DATA;
#1 = EDGE_LOOP ( 'NONE', ( #71, #301, #22 ) ) ;
#2 = APPROVAL_STATUS ( 'not_yet_approved' ) ;
#3 = ORIENTED_EDGE ( 'NONE', *, *, #227, .F. ) ;
#4 = DIRECTION ( 'NONE',  ( -0.000000000000000000, 0.000000000000000000, -1.000000000000000000 ) ) ;
#5 = ORIENTED_EDGE ( 'NONE', *, *, #151, .F. ) ;
#6 = LOCAL_TIME ( 10, 9, 59.00000000000000000, #88 ) ;
#7 = PLANE ( 'NONE',  #41 ) ;
#8 = CARTESIAN_POINT ( 'NONE',  ( 5.000000000000000888, -5.000000000000000000, 5.000000000000000000 ) ) ;
#9 = PLANE ( 'NONE',  #166 ) ;
#10 = DIRECTION ( 'NONE',  ( 0.000000000000000000, 0.000000000000000000, 1.000000000000000000 ) ) ;
#11 = AXIS2_PLACEMENT_3D ( 'NONE', #68, #190, #113 ) ;
#12 = CC_DESIGN_APPROVAL ( #193, ( #63 ) ) ;
#13 = APPLICATION_PROTOCOL_DEFINITION ( 'international standard', 'config_control_design', 1994, #260 ) ;
#14 = CARTESIAN_POINT ( 'NONE',  ( 5.000000000000000888, 5.000000000000001776, 5.000000000000000000 ) ) ;
#15 = PERSON_AND_ORGANIZATION ( #179, #28 ) ;
#16 = ADVANCED_FACE ( 'NONE', ( #235 ), #9, .F. ) ;
#17 = DIRECTION ( 'NONE',  ( -1.000000000000000000, 4.857225732735059864E-17, 0.000000000000000000 ) ) ;
#18 = EDGE_CURVE ( 'NONE', #121, #103, #239, .T. ) ;
#19 = APPROVAL_PERSON_ORGANIZATION ( #232, #95, #320 ) ;
#20 = ORIENTED_EDGE ( 'NONE', *, *, #67, .T. ) ;
#21 = AXIS2_PLACEMENT_3D ( 'NONE', #65, #220, #87 ) ;
#22 = ORIENTED_EDGE ( 'NONE', *, *, #321, .F. ) ;
#23 = ORIENTED_EDGE ( 'NONE', *, *, #263, .T. ) ;
#24 = DATE_AND_TIME ( #98, #54 ) ;
#25 = ORIENTED_EDGE ( 'NONE', *, *, #222, .F. ) ;
#26 = CARTESIAN_POINT ( 'NONE',  ( 5.000000000000000888, 5.000000000000001776, -5.000000000000000000 ) ) ;
#27 = ORIENTED_EDGE ( 'NONE', *, *, #117, .T. ) ;
#28 = ORGANIZATION ( 'UNSPECIFIED', 'UNSPECIFIED', '' ) ;
#29 = CARTESIAN_POINT ( 'NONE',  ( -4.999999999999999112, -5.000000000000000000, 5.000000000000000000 ) ) ;
#30 = CARTESIAN_POINT ( 'NONE',  ( 5.000000000000000888, 5.000000000000001776, -5.000000000000000000 ) ) ;
#31 = DESIGN_CONTEXT ( 'detailed design', #260, 'design' ) ;
#32 = APPLICATION_PROTOCOL_DEFINITION ( 'international standard', 'config_control_design', 1994, #219 ) ;
#33 = ADVANCED_FACE ( 'NONE', ( #154 ), #58, .F. ) ;
#34 = FACE_OUTER_BOUND ( 'NONE', #234, .T. ) ;
#35 = DATE_AND_TIME ( #221, #312 ) ;
#36 = CC_DESIGN_PERSON_AND_ORGANIZATION_ASSIGNMENT ( #201, #241, ( #177 ) ) ;
#37 = CC_DESIGN_DATE_AND_TIME_ASSIGNMENT ( #24, #127, ( #198 ) ) ;
#38 = CARTESIAN_POINT ( 'NONE',  ( 5.000000000000000888, -5.000000000000000000, 5.000000000000000000 ) ) ;
#39 =( NAMED_UNIT ( * ) SI_UNIT ( $, .STERADIAN. ) SOLID_ANGLE_UNIT ( ) );
#40 = CARTESIAN_POINT ( 'NONE',  ( 0.000000000000000000, 0.000000000000000000, 5.000000000000000000 ) ) ;
#41 = AXIS2_PLACEMENT_3D ( 'NONE', #305, #78, #186 ) ;
#42 = CARTESIAN_POINT ( 'NONE',  ( 5.000000000000000888, 5.000000000000001776, 5.000000000000000000 ) ) ;
#43 = CLOSED_SHELL ( 'NONE', ( #79, #33, #148, #168, #204 ) ) ;
#44 = PLANE ( 'NONE',  #107 ) ;
#45 = ADVANCED_BREP_SHAPE_REPRESENTATION ( 'BK7-NPBSC-10-1200-1600', ( #178, #172, #99 ), #46 ) ;
#46 =( GEOMETRIC_REPRESENTATION_CONTEXT ( 3 ) GLOBAL_UNCERTAINTY_ASSIGNED_CONTEXT ( ( #85 ) ) GLOBAL_UNIT_ASSIGNED_CONTEXT ( ( #143, #218, #39 ) ) REPRESENTATION_CONTEXT ( 'NONE', 'WORKASPACE' ) );
#47 = PRODUCT_RELATED_PRODUCT_CATEGORY ( 'detail', '', ( #177 ) ) ;
#48 = EDGE_LOOP ( 'NONE', ( #292, #5, #25, #23 ) ) ;
#49 = PERSON_AND_ORGANIZATION ( #179, #28 ) ;
#50 = PERSON_AND_ORGANIZATION_ROLE ( 'classification_officer' ) ;
#51 = DATE_AND_TIME ( #90, #64 ) ;
#52 = VECTOR ( 'NONE', #243, 1000.000000000000000 ) ;
#53 = CC_DESIGN_PERSON_AND_ORGANIZATION_ASSIGNMENT ( #49, #230, ( #134 ) ) ;
#54 = LOCAL_TIME ( 10, 9, 59.00000000000000000, #294 ) ;
#55 = ORIENTED_EDGE ( 'NONE', *, *, #18, .F. ) ;
#56 = ORIENTED_EDGE ( 'NONE', *, *, #185, .F. ) ;
#57 = DIRECTION ( 'NONE',  ( 1.000000000000000000, -4.857225732735059864E-17, 0.000000000000000000 ) ) ;
#58 = PLANE ( 'NONE',  #266 ) ;
#59 = DIRECTION ( 'NONE',  ( 0.7071067811865475727, 0.7071067811865474617, 0.000000000000000000 ) ) ;
#60 = DIRECTION ( 'NONE',  ( -1.734723475976807094E-16, -1.000000000000000000, 0.000000000000000000 ) ) ;
#61 = DIRECTION ( 'NONE',  ( 1.734723475976807094E-16, 1.000000000000000000, -0.000000000000000000 ) ) ;
#62 = LINE ( 'NONE', #138, #319 ) ;
#63 = PRODUCT_DEFINITION ( 'UNKNOWN', '', #134, #31 ) ;
#64 = LOCAL_TIME ( 10, 9, 59.00000000000000000, #136 ) ;
#65 = CARTESIAN_POINT ( 'NONE',  ( 0.000000000000000000, 0.000000000000000000, -5.000000000000000000 ) ) ;
#66 = MECHANICAL_CONTEXT ( 'NONE', #219, 'mechanical' ) ;
#67 = EDGE_CURVE ( 'NONE', #296, #101, #257, .T. ) ;
#68 = CARTESIAN_POINT ( 'NONE',  ( 0.000000000000000000, 0.000000000000000000, 5.000000000000000000 ) ) ;
#69 = CARTESIAN_POINT ( 'NONE',  ( 5.000000000000000888, -5.000000000000000000, -5.000000000000000000 ) ) ;
#70 = CLOSED_SHELL ( 'NONE', ( #118, #16, #112, #203, #81 ) ) ;
#71 = ORIENTED_EDGE ( 'NONE', *, *, #214, .F. ) ;
#72 = CARTESIAN_POINT ( 'NONE',  ( 5.000000000000002665, 5.000000000000000000, 5.000000000000000000 ) ) ;
#73 = VERTEX_POINT ( 'NONE', #29 ) ;
#74 = DIRECTION ( 'NONE',  ( 1.000000000000000000, 0.000000000000000000, 0.000000000000000000 ) ) ;
#75 = APPROVAL ( #284, 'UNSPECIFIED' ) ;
#76 = SHAPE_DEFINITION_REPRESENTATION ( #124, #45 ) ;
#77 = EDGE_LOOP ( 'NONE', ( #180, #212, #3, #200 ) ) ;
#78 = DIRECTION ( 'NONE',  ( -0.7071067811865474617, 0.7071067811865475727, 0.000000000000000000 ) ) ;
#79 = ADVANCED_FACE ( 'NONE', ( #238 ), #7, .F. ) ;
#80 = PLANE ( 'NONE',  #277 ) ;
#81 = ADVANCED_FACE ( 'NONE', ( #86 ), #303, .F. ) ;
#82 = EDGE_CURVE ( 'NONE', #269, #129, #131, .T. ) ;
#83 = DIRECTION ( 'NONE',  ( 0.000000000000000000, 1.000000000000000000, 0.000000000000000000 ) ) ;
#84 = VECTOR ( 'NONE', #57, 1000.000000000000000 ) ;
#85 = UNCERTAINTY_MEASURE_WITH_UNIT (LENGTH_MEASURE( 1.000000000000000082E-05 ), #143, 'distance_accuracy_value', 'NONE');
#86 = FACE_OUTER_BOUND ( 'NONE', #1, .T. ) ;
#87 = DIRECTION ( 'NONE',  ( 2.220446049250313081E-16, 1.000000000000000000, 0.000000000000000000 ) ) ;
#88 = COORDINATED_UNIVERSAL_TIME_OFFSET ( 8, 0, .AHEAD. ) ;
#89 = DIRECTION ( 'NONE',  ( -0.7071067811865475727, -0.7071067811865474617, 0.000000000000000000 ) ) ;
#90 = CALENDAR_DATE ( 2020, 22, 12 ) ;
#91 = CC_DESIGN_SECURITY_CLASSIFICATION ( #198, ( #134 ) ) ;
#92 = DIRECTION ( 'NONE',  ( -0.000000000000000000, 0.000000000000000000, 1.000000000000000000 ) ) ;
#93 = CARTESIAN_POINT ( 'NONE',  ( -5.000000000000000888, -4.999999999999998224, -5.000000000000000000 ) ) ;
#94 = CC_DESIGN_APPROVAL ( #95, ( #198 ) ) ;
#95 = APPROVAL ( #2, 'UNSPECIFIED' ) ;
#96 = COORDINATED_UNIVERSAL_TIME_OFFSET ( 8, 0, .AHEAD. ) ;
#97 = ORIENTED_EDGE ( 'NONE', *, *, #123, .T. ) ;
#98 = CALENDAR_DATE ( 2020, 22, 12 ) ;
#99 = AXIS2_PLACEMENT_3D ( 'NONE', #144, #10, #244 ) ;
#100 = VERTEX_POINT ( 'NONE', #8 ) ;
#101 = VERTEX_POINT ( 'NONE', #280 ) ;
#102 = FACE_OUTER_BOUND ( 'NONE', #199, .T. ) ;
#103 = VERTEX_POINT ( 'NONE', #26 ) ;
#104 = PLANE ( 'NONE',  #167 ) ;
#105 = LINE ( 'NONE', #183, #125 ) ;
#106 = DIRECTION ( 'NONE',  ( 1.000000000000000000, -4.857225732735059864E-17, 0.000000000000000000 ) ) ;
#107 = AXIS2_PLACEMENT_3D ( 'NONE', #14, #283, #17 ) ;
#108 = CARTESIAN_POINT ( 'NONE',  ( -4.999999999999999112, -5.000000000000000000, -5.000000000000000000 ) ) ;
#109 = CC_DESIGN_PERSON_AND_ORGANIZATION_ASSIGNMENT ( #282, #174, ( #63 ) ) ;
#110 = LINE ( 'NONE', #42, #217 ) ;
#111 = LINE ( 'NONE', #286, #161 ) ;
#112 = ADVANCED_FACE ( 'NONE', ( #102 ), #104, .F. ) ;
#113 = DIRECTION ( 'NONE',  ( 2.220446049250313081E-16, 1.000000000000000000, 0.000000000000000000 ) ) ;
#114 = AXIS2_PLACEMENT_3D ( 'NONE', #40, #92, #264 ) ;
#115 = CARTESIAN_POINT ( 'NONE',  ( 5.000000000000002665, 5.000000000000000000, -5.000000000000000000 ) ) ;
#116 = LINE ( 'NONE', #192, #288 ) ;
#117 = EDGE_CURVE ( 'NONE', #101, #103, #105, .T. ) ;
#118 = ADVANCED_FACE ( 'NONE', ( #132 ), #80, .F. ) ;
#119 = ORIENTED_EDGE ( 'NONE', *, *, #279, .T. ) ;
#120 = CARTESIAN_POINT ( 'NONE',  ( -4.999999999999999112, 5.000000000000001776, 5.000000000000000000 ) ) ;
#121 = VERTEX_POINT ( 'NONE', #184 ) ;
#122 = PERSON_AND_ORGANIZATION_ROLE ( 'design_supplier' ) ;
#123 = EDGE_CURVE ( 'NONE', #296, #121, #156, .T. ) ;
#124 = PRODUCT_DEFINITION_SHAPE ( 'NONE', 'NONE',  #63 ) ;
#125 = VECTOR ( 'NONE', #4, 1000.000000000000000 ) ;
#126 = EDGE_LOOP ( 'NONE', ( #236, #255, #142, #210 ) ) ;
#127 = DATE_TIME_ROLE ( 'classification_date' ) ;
#128 = CARTESIAN_POINT ( 'NONE',  ( 5.000000000000002665, 5.000000000000000000, 5.000000000000000000 ) ) ;
#129 = VERTEX_POINT ( 'NONE', #115 ) ;
#130 = ORIENTED_EDGE ( 'NONE', *, *, #189, .T. ) ;
#131 = LINE ( 'NONE', #150, #147 ) ;
#132 = FACE_OUTER_BOUND ( 'NONE', #77, .T. ) ;
#133 = VECTOR ( 'NONE', #141, 1000.000000000000000 ) ;
#134 = PRODUCT_DEFINITION_FORMATION_WITH_SPECIFIED_SOURCE ( 'ANY', '', #177, .NOT_KNOWN. ) ;
#135 = FACE_OUTER_BOUND ( 'NONE', #295, .T. ) ;
#136 = COORDINATED_UNIVERSAL_TIME_OFFSET ( 8, 0, .AHEAD. ) ;
#137 = CARTESIAN_POINT ( 'NONE',  ( -5.000000000000000888, -4.999999999999998224, 5.000000000000000000 ) ) ;
#138 = CARTESIAN_POINT ( 'NONE',  ( 5.000000000000002665, 5.000000000000000000, -5.000000000000000000 ) ) ;
#139 = VECTOR ( 'NONE', #246, 1000.000000000000000 ) ;
#140 = EDGE_CURVE ( 'NONE', #101, #233, #110, .T. ) ;
#141 = DIRECTION ( 'NONE',  ( -0.000000000000000000, 0.000000000000000000, -1.000000000000000000 ) ) ;
#142 = ORIENTED_EDGE ( 'NONE', *, *, #140, .T. ) ;
#143 =( LENGTH_UNIT ( ) NAMED_UNIT ( * ) SI_UNIT ( .MILLI., .METRE. ) );
#144 = CARTESIAN_POINT ( 'NONE',  ( 0.000000000000000000, 0.000000000000000000, 0.000000000000000000 ) ) ;
#145 = PERSON_AND_ORGANIZATION ( #179, #28 ) ;
#146 = ORIENTED_EDGE ( 'NONE', *, *, #227, .T. ) ;
#147 = VECTOR ( 'NONE', #278, 1000.000000000000000 ) ;
#148 = ADVANCED_FACE ( 'NONE', ( #34 ), #44, .F. ) ;
#149 = ORIENTED_EDGE ( 'NONE', *, *, #185, .T. ) ;
#150 = CARTESIAN_POINT ( 'NONE',  ( 5.000000000000002665, 5.000000000000000000, 5.000000000000000000 ) ) ;
#151 = EDGE_CURVE ( 'NONE', #100, #182, #309, .T. ) ;
#152 = ORIENTED_EDGE ( 'NONE', *, *, #268, .T. ) ;
#153 = DIRECTION ( 'NONE',  ( 0.000000000000000000, 0.000000000000000000, 1.000000000000000000 ) ) ;
#154 = FACE_OUTER_BOUND ( 'NONE', #173, .T. ) ;
#155 = APPROVAL_PERSON_ORGANIZATION ( #310, #75, #261 ) ;
#156 = LINE ( 'NONE', #258, #133 ) ;
#157 = DIRECTION ( 'NONE',  ( 1.000000000000000000, 0.000000000000000000, 0.000000000000000000 ) ) ;
#158 = DIRECTION ( 'NONE',  ( -0.000000000000000000, 0.000000000000000000, -1.000000000000000000 ) ) ;
#159 = CARTESIAN_POINT ( 'NONE',  ( -5.000000000000000888, -4.999999999999998224, 5.000000000000000000 ) ) ;
#160 = DATE_AND_TIME ( #191, #6 ) ;
#161 = VECTOR ( 'NONE', #188, 1000.000000000000000 ) ;
#162 = CARTESIAN_POINT ( 'NONE',  ( -4.999999999999999112, -5.000000000000000000, -5.000000000000000000 ) ) ;
#163 = EDGE_CURVE ( 'NONE', #103, #181, #116, .T. ) ;
#164 = DIRECTION ( 'NONE',  ( -0.7071067811865475727, -0.7071067811865474617, 0.000000000000000000 ) ) ;
#165 = FACE_OUTER_BOUND ( 'NONE', #299, .T. ) ;
#166 = AXIS2_PLACEMENT_3D ( 'NONE', #298, #83, #237 ) ;
#167 = AXIS2_PLACEMENT_3D ( 'NONE', #128, #302, #60 ) ;
#168 = ADVANCED_FACE ( 'NONE', ( #307 ), #226, .T. ) ;
#169 = DIRECTION ( 'NONE',  ( 1.000000000000000000, 0.000000000000000000, 0.000000000000000000 ) ) ;
#170 = EDGE_LOOP ( 'NONE', ( #250, #276, #271 ) ) ;
#171 = CARTESIAN_POINT ( 'NONE',  ( -5.000000000000000888, -4.999999999999998224, 5.000000000000000000 ) ) ;
#172 = MANIFOLD_SOLID_BREP ( '¾µÏ', #43 ) ;
#173 = EDGE_LOOP ( 'NONE', ( #56, #249, #130, #97 ) ) ;
#174 = PERSON_AND_ORGANIZATION_ROLE ( 'creator' ) ;
#175 = ORIENTED_EDGE ( 'NONE', *, *, #18, .T. ) ;
#176 = VECTOR ( 'NONE', #169, 1000.000000000000000 ) ;
#177 = PRODUCT ( 'BK7-NPBSC-10-1200-1600', 'BK7-NPBSC-10-1200-1600', '', ( #66 ) ) ;
#178 = MANIFOLD_SOLID_BREP ( 'Í¹Ì¨-À', #70 ) ;
#179 = PERSON ( 'UNSPECIFIED', 'UNSPECIFIED', 'UNSPECIFIED', ('UNSPECIFIED'), ('UNSPECIFIED'), ('UNSPECIFIED') ) ;
#180 = ORIENTED_EDGE ( 'NONE', *, *, #214, .T. ) ;
#181 = VERTEX_POINT ( 'NONE', #265 ) ;
#182 = VERTEX_POINT ( 'NONE', #69 ) ;
#183 = CARTESIAN_POINT ( 'NONE',  ( 5.000000000000000888, 5.000000000000001776, 5.000000000000000000 ) ) ;
#184 = CARTESIAN_POINT ( 'NONE',  ( -4.999999999999999112, 5.000000000000001776, -5.000000000000000000 ) ) ;
#185 = EDGE_CURVE ( 'NONE', #181, #121, #262, .T. ) ;
#186 = DIRECTION ( 'NONE',  ( 0.7071067811865475727, 0.7071067811865474617, 0.000000000000000000 ) ) ;
#187 = DIRECTION ( 'NONE',  ( 1.000000000000000000, -2.220446049250313081E-16, 0.000000000000000000 ) ) ;
#188 = DIRECTION ( 'NONE',  ( 1.734723475976807094E-16, 1.000000000000000000, -0.000000000000000000 ) ) ;
#189 = EDGE_CURVE ( 'NONE', #233, #296, #315, .T. ) ;
#190 = DIRECTION ( 'NONE',  ( 0.000000000000000000, -0.000000000000000000, 1.000000000000000000 ) ) ;
#191 = CALENDAR_DATE ( 2020, 22, 12 ) ;
#192 = CARTESIAN_POINT ( 'NONE',  ( 5.000000000000000888, 5.000000000000001776, -5.000000000000000000 ) ) ;
#193 = APPROVAL ( #313, 'UNSPECIFIED' ) ;
#194 = LINE ( 'NONE', #108, #229 ) ;
#195 = VECTOR ( 'NONE', #61, 1000.000000000000000 ) ;
#196 = CARTESIAN_POINT ( 'NONE',  ( -4.999999999999999112, -5.000000000000000000, 5.000000000000000000 ) ) ;
#197 = LINE ( 'NONE', #196, #251 ) ;
#198 = SECURITY_CLASSIFICATION ( '', '', #272 ) ;
#199 = EDGE_LOOP ( 'NONE', ( #152, #207, #205, #275 ) ) ;
#200 = ORIENTED_EDGE ( 'NONE', *, *, #82, .T. ) ;
#201 = PERSON_AND_ORGANIZATION ( #179, #28 ) ;
#202 = APPROVAL_DATE_TIME ( #51, #75 ) ;
#203 = ADVANCED_FACE ( 'NONE', ( #135 ), #287, .T. ) ;
#204 = ADVANCED_FACE ( 'NONE', ( #165 ), #245, .F. ) ;
#205 = ORIENTED_EDGE ( 'NONE', *, *, #279, .F. ) ;
#206 = DATE_AND_TIME ( #318, #242 ) ;
#207 = ORIENTED_EDGE ( 'NONE', *, *, #82, .F. ) ;
#208 = APPROVAL_DATE_TIME ( #206, #95 ) ;
#209 = CARTESIAN_POINT ( 'NONE',  ( 5.000000000000002665, 5.000000000000000000, 5.000000000000000000 ) ) ;
#210 = ORIENTED_EDGE ( 'NONE', *, *, #285, .T. ) ;
#211 = VECTOR ( 'NONE', #158, 1000.000000000000000 ) ;
#212 = ORIENTED_EDGE ( 'NONE', *, *, #263, .F. ) ;
#213 = CARTESIAN_POINT ( 'NONE',  ( 0.000000000000000000, 0.000000000000000000, -5.000000000000000000 ) ) ;
#214 = EDGE_CURVE ( 'NONE', #129, #273, #62, .T. ) ;
#215 = VECTOR ( 'NONE', #106, 1000.000000000000000 ) ;
#216 = CARTESIAN_POINT ( 'NONE',  ( -5.000000000000000888, -4.999999999999998224, 5.000000000000000000 ) ) ;
#217 = VECTOR ( 'NONE', #281, 1000.000000000000000 ) ;
#218 =( NAMED_UNIT ( * ) PLANE_ANGLE_UNIT ( ) SI_UNIT ( $, .RADIAN. ) );
#219 = APPLICATION_CONTEXT ( 'configuration controlled 3d designs of mechanical parts and assemblies' ) ;
#220 = DIRECTION ( 'NONE',  ( 0.000000000000000000, -0.000000000000000000, 1.000000000000000000 ) ) ;
#221 = CALENDAR_DATE ( 2020, 22, 12 ) ;
#222 = EDGE_CURVE ( 'NONE', #73, #100, #224, .T. ) ;
#223 = DATE_TIME_ROLE ( 'creation_date' ) ;
#224 = LINE ( 'NONE', #247, #176 ) ;
#225 = LINE ( 'NONE', #306, #195 ) ;
#226 = PLANE ( 'NONE',  #11 ) ;
#227 = EDGE_CURVE ( 'NONE', #269, #73, #228, .T. ) ;
#228 = LINE ( 'NONE', #311, #231 ) ;
#229 = VECTOR ( 'NONE', #74, 1000.000000000000000 ) ;
#230 = PERSON_AND_ORGANIZATION_ROLE ( 'creator' ) ;
#231 = VECTOR ( 'NONE', #316, 1000.000000000000000 ) ;
#232 = PERSON_AND_ORGANIZATION ( #179, #28 ) ;
#233 = VERTEX_POINT ( 'NONE', #159 ) ;
#234 = EDGE_LOOP ( 'NONE', ( #55, #253, #20, #27 ) ) ;
#235 = FACE_OUTER_BOUND ( 'NONE', #48, .T. ) ;
#236 = ORIENTED_EDGE ( 'NONE', *, *, #163, .F. ) ;
#237 = DIRECTION ( 'NONE',  ( 0.000000000000000000, -0.000000000000000000, 1.000000000000000000 ) ) ;
#238 = FACE_OUTER_BOUND ( 'NONE', #126, .T. ) ;
#239 = LINE ( 'NONE', #30, #84 ) ;
#240 = VECTOR ( 'NONE', #289, 1000.000000000000000 ) ;
#241 = PERSON_AND_ORGANIZATION_ROLE ( 'design_owner' ) ;
#242 = LOCAL_TIME ( 10, 9, 59.00000000000000000, #96 ) ;
#243 = DIRECTION ( 'NONE',  ( 2.220446049250313081E-16, 1.000000000000000000, 0.000000000000000000 ) ) ;
#244 = DIRECTION ( 'NONE',  ( 1.000000000000000000, 0.000000000000000000, 0.000000000000000000 ) ) ;
#245 = PLANE ( 'NONE',  #21 ) ;
#246 = DIRECTION ( 'NONE',  ( -0.000000000000000000, -0.000000000000000000, -1.000000000000000000 ) ) ;
#247 = CARTESIAN_POINT ( 'NONE',  ( -4.999999999999999112, -5.000000000000000000, 5.000000000000000000 ) ) ;
#248 = APPROVAL_ROLE ( '' ) ;
#249 = ORIENTED_EDGE ( 'NONE', *, *, #285, .F. ) ;
#250 = ORIENTED_EDGE ( 'NONE', *, *, #140, .F. ) ;
#251 = VECTOR ( 'NONE', #267, 1000.000000000000000 ) ;
#252 = PERSON_AND_ORGANIZATION ( #179, #28 ) ;
#253 = ORIENTED_EDGE ( 'NONE', *, *, #123, .F. ) ;
#254 = DIRECTION ( 'NONE',  ( 0.7071067811865474617, -0.7071067811865475727, 0.000000000000000000 ) ) ;
#255 = ORIENTED_EDGE ( 'NONE', *, *, #117, .F. ) ;
#256 = DIRECTION ( 'NONE',  ( -0.000000000000000000, 0.000000000000000000, 1.000000000000000000 ) ) ;
#257 = LINE ( 'NONE', #300, #215 ) ;
#258 = CARTESIAN_POINT ( 'NONE',  ( -4.999999999999999112, 5.000000000000001776, 5.000000000000000000 ) ) ;
#259 = CC_DESIGN_PERSON_AND_ORGANIZATION_ASSIGNMENT ( #252, #50, ( #198 ) ) ;
#260 = APPLICATION_CONTEXT ( 'configuration controlled 3d designs of mechanical parts and assemblies' ) ;
#261 = APPROVAL_ROLE ( '' ) ;
#262 = LINE ( 'NONE', #93, #52 ) ;
#263 = EDGE_CURVE ( 'NONE', #73, #273, #197, .T. ) ;
#264 = DIRECTION ( 'NONE',  ( 1.000000000000000000, 0.000000000000000000, 0.000000000000000000 ) ) ;
#265 = CARTESIAN_POINT ( 'NONE',  ( -5.000000000000000888, -4.999999999999998224, -5.000000000000000000 ) ) ;
#266 = AXIS2_PLACEMENT_3D ( 'NONE', #216, #187, #153 ) ;
#267 = DIRECTION ( 'NONE',  ( -0.000000000000000000, -0.000000000000000000, -1.000000000000000000 ) ) ;
#268 = EDGE_CURVE ( 'NONE', #182, #129, #111, .T. ) ;
#269 = VERTEX_POINT ( 'NONE', #72 ) ;
#270 = LINE ( 'NONE', #171, #211 ) ;
#271 = ORIENTED_EDGE ( 'NONE', *, *, #189, .F. ) ;
#272 = SECURITY_CLASSIFICATION_LEVEL ( 'unclassified' ) ;
#273 = VERTEX_POINT ( 'NONE', #162 ) ;
#274 = CC_DESIGN_APPROVAL ( #75, ( #134 ) ) ;
#275 = ORIENTED_EDGE ( 'NONE', *, *, #151, .T. ) ;
#276 = ORIENTED_EDGE ( 'NONE', *, *, #67, .F. ) ;
#277 = AXIS2_PLACEMENT_3D ( 'NONE', #209, #254, #59 ) ;
#278 = DIRECTION ( 'NONE',  ( -0.000000000000000000, -0.000000000000000000, -1.000000000000000000 ) ) ;
#279 = EDGE_CURVE ( 'NONE', #100, #269, #225, .T. ) ;
#280 = CARTESIAN_POINT ( 'NONE',  ( 5.000000000000000888, 5.000000000000001776, 5.000000000000000000 ) ) ;
#281 = DIRECTION ( 'NONE',  ( -0.7071067811865475727, -0.7071067811865474617, 0.000000000000000000 ) ) ;
#282 = PERSON_AND_ORGANIZATION ( #179, #28 ) ;
#283 = DIRECTION ( 'NONE',  ( -4.857225732735059864E-17, -1.000000000000000000, 0.000000000000000000 ) ) ;
#284 = APPROVAL_STATUS ( 'not_yet_approved' ) ;
#285 = EDGE_CURVE ( 'NONE', #233, #181, #270, .T. ) ;
#286 = CARTESIAN_POINT ( 'NONE',  ( 5.000000000000002665, 5.000000000000000000, -5.000000000000000000 ) ) ;
#287 = PLANE ( 'NONE',  #114 ) ;
#288 = VECTOR ( 'NONE', #164, 1000.000000000000000 ) ;
#289 = DIRECTION ( 'NONE',  ( 2.220446049250313081E-16, 1.000000000000000000, 0.000000000000000000 ) ) ;
#290 = APPROVAL_PERSON_ORGANIZATION ( #15, #193, #248 ) ;
#291 = ORIENTED_EDGE ( 'NONE', *, *, #163, .T. ) ;
#292 = ORIENTED_EDGE ( 'NONE', *, *, #321, .T. ) ;
#293 = COORDINATED_UNIVERSAL_TIME_OFFSET ( 8, 0, .AHEAD. ) ;
#294 = COORDINATED_UNIVERSAL_TIME_OFFSET ( 8, 0, .AHEAD. ) ;
#295 = EDGE_LOOP ( 'NONE', ( #146, #297, #119 ) ) ;
#296 = VERTEX_POINT ( 'NONE', #120 ) ;
#297 = ORIENTED_EDGE ( 'NONE', *, *, #222, .T. ) ;
#298 = CARTESIAN_POINT ( 'NONE',  ( -4.999999999999999112, -5.000000000000000000, 5.000000000000000000 ) ) ;
#299 = EDGE_LOOP ( 'NONE', ( #291, #149, #175 ) ) ;
#300 = CARTESIAN_POINT ( 'NONE',  ( 5.000000000000000888, 5.000000000000001776, 5.000000000000000000 ) ) ;
#301 = ORIENTED_EDGE ( 'NONE', *, *, #268, .F. ) ;
#302 = DIRECTION ( 'NONE',  ( -1.000000000000000000, 1.734723475976807094E-16, 0.000000000000000000 ) ) ;
#303 = PLANE ( 'NONE',  #304 ) ;
#304 = AXIS2_PLACEMENT_3D ( 'NONE', #213, #256, #157 ) ;
#305 = CARTESIAN_POINT ( 'NONE',  ( 5.000000000000000888, 5.000000000000001776, 5.000000000000000000 ) ) ;
#306 = CARTESIAN_POINT ( 'NONE',  ( 5.000000000000002665, 5.000000000000000000, 5.000000000000000000 ) ) ;
#307 = FACE_OUTER_BOUND ( 'NONE', #170, .T. ) ;
#308 = APPROVAL_DATE_TIME ( #35, #193 ) ;
#309 = LINE ( 'NONE', #38, #139 ) ;
#310 = PERSON_AND_ORGANIZATION ( #179, #28 ) ;
#311 = CARTESIAN_POINT ( 'NONE',  ( 5.000000000000002665, 5.000000000000000000, 5.000000000000000000 ) ) ;
#312 = LOCAL_TIME ( 10, 9, 59.00000000000000000, #293 ) ;
#313 = APPROVAL_STATUS ( 'not_yet_approved' ) ;
#314 = CC_DESIGN_DATE_AND_TIME_ASSIGNMENT ( #160, #223, ( #63 ) ) ;
#315 = LINE ( 'NONE', #137, #240 ) ;
#316 = DIRECTION ( 'NONE',  ( -0.7071067811865475727, -0.7071067811865474617, 0.000000000000000000 ) ) ;
#317 = CC_DESIGN_PERSON_AND_ORGANIZATION_ASSIGNMENT ( #145, #122, ( #134 ) ) ;
#318 = CALENDAR_DATE ( 2020, 22, 12 ) ;
#319 = VECTOR ( 'NONE', #89, 1000.000000000000000 ) ;
#320 = APPROVAL_ROLE ( '' ) ;
#321 = EDGE_CURVE ( 'NONE', #273, #182, #194, .T. ) ;
ENDSEC;
END-ISO-10303-21;
